[26-05-13 00:28:55] <darkeyzs> Ouvi dizer, governo foi feito para o povo, tribunais foram feitos para o povo, câmaras for
[26-05-13 00:29:53] <darkeyzs> am feitas para o povo, cidades foram feitas para o povo, empresas foram feitas para o povo
[26-05-13 00:30:18] <darkeyzs> , assembleia foi feita para o povo, políticos foram feitos para o povo, dinheiro foi feito
[26-05-13 00:31:08] <darkeyzs> para o povo, tudo foi feito para o povo....
[26-05-13 00:31:09] <darkeyzs> para o povo, tudo foi feito para o povo....
[26-05-13 00:31:10] <darkeyzs> para o povo, tudo foi feito para o povo....
[22-06-13 23:29:29] <doomknight> tao pa
 
*** INSCREVAM-SE NO FÓRUM PARA RECEBEREM NOVIDADES SOBRE O VAI TUDO ABAIXO E OS HOMENS DA LUTA E PODEREM DAR A VOSSA OPINIÃO! PARTICIPEM!!! ***
 

Bem vindo ao Vai Tudo Abaixo!.
Aqui poderão encontrar aqui tudo sobre o Vai Tudo Abaixo, Homens da Luta, Kalashnikov, Ruce e Reco, Blackskin, Revolta dos Pastéis de Nata, etc... Visitem o Fórum para pesquisar vídeos, e consultem as nossas outras secções, onde poderão dar as vossas opiniões e partilhar as vossas ideias...
Para começarem a ver tópicos, basta seleccionarem-nos dentro dos sub-fóruns abaixo, mas terão de se registar para poderem colocar novas mensagens no Fórum e Chat... Em caso de dúvidas sobre o uso do Fórum poderão consultar a nossa secção de Perguntas Frequentes clicando no link acima.
Atenção: Ao inscreverem-se receberão notícias sobre o Vai Tudo Abaixo via email, se quiserem deixar de receber emails, basta avisar para o email geral com um simples reply ao email para: geral [at] vaitudoabaixo.com (a opção de receber emails do fórum apenas se destina ao fórum).


Kalashnikov A War Band Kalashnikov!

Responder
 
Opções Display
  #41  
Velho 14-09-2009, 19:36
Avatar de Bruxxxa
Bruxxxa Bruxxxa encontra-se desligado
Recruta
 
About:
Data de Adesão: May 2007
Localidade: Hell
Mensagens: 93
Por Defeito

Olá camaradas da luta!

Só para não dizerem que nós não é amigos, vou-me dar-me ao trabalho de postar aqui tabs de algumas músicas da gente!

Bom trabalho e obrigado a quem as fez!
Bruxxxa
Kalashnikov

Tiananmen
http://www.ultimate-guitar.com/tabs/...anamen_tab.htm
intro

E------------------------------|
B------------------------------|
G------------------------------|
D--4-4-----4-4-----7-7-----8-8-| X2
A--4-4-----4-4-----7-7-----8-8-|
E--2-2-----2-2-----5-5-----6-6-|

E----------------------------------------------------------------------|
B----------------------------------------------------------------------|
G------4p2h4p2----------4p2h4p2----------4p2h4p2----------4p2h4p2------|
D--4-4--------4p2h4-4-4--------4p2h4-7-7--------4p2h4-8-8--------4p2h4-|X2
A--4-4--------------4-4--------------7-7--------------8-8--------------|
E--2-2--------------2-2--------------5-5--------------6-6--------------|

verse

G-------------------------------------9-----9----------------------|
D-----4-----4---4---------------------9-----9---9------------------|
A-----4-----4---4-----------------7-7-7-7-7-7-7-9-------------9/7--| X4
E-2-2-2-2-2-2-2-2-2-2-2-2-2-2-2-2---------------7-7-7-7-7-7-7-7/5--|
* * * * * * * * * * * * * * * * * * * * * * * *

* - palm mutted

on the fourth time, just before the chorus,it goes like this

G------9-----9------------------|
D------9-----9---9--9-9-9-9-9-7-|
A--7-7-7-7-7-7-7-9--9-9-9-9-9-7-|
E----------------7--7-7-7-7-7-5-|
* * * * *

chorus

G---------9------------- (i´m not 100--| sure about how many times the
D--4------9-X7--9----7--------------------| the chords are played so its better to listen
A--4-X16--7-----9-X7-7--------------------| X2 to the song and find out for yourself)
E--2------------7----5--------------------|

then comes the intro riff again

E----------------------------------------------------------------------|
B----------------------------------------------------------------------|
G------4p2h4p2----------4p2h4p2----------4p2h4p2----------4p2h4p2------|
D--4-4--------4p2h4-4-4--------4p2h4-7-7--------4p2h4-8-8--------4p2h4-|X2
A--4-4--------------4-4--------------7-7--------------8-8--------------|
E--2-2--------------2-2--------------5-5--------------6-6--------------|

verse again...

chorus again (this time play it X4)

intro riff again...

bridge/solo

E----------------------------------------------------------|
B-----------11~--12-11----------------11~--12-11-12-11~----|
G---9-11-12------------12-9~--9-11-12----------------------|
D----------------------------------------------------------|
A----------------------------------------------------------|
E----------------------------------------------------------|

(let the notes ring)
E------7----7----7----7----------12--12--12-13~-------------|
B--10pb-10pb-10pb-10pb-10pb~---15--15--15-------------------|
G-----------------------------------------------------------|
D-----------------------------------------------------------|
A-----------------------------------------------------------|
E-----------------------------------------------------------|

chorus

outro

E-------------------------------------|
B--7--7----7--7----10--10---12--12----|
G--9b-9b~--9b-9b~--12b-12b~-14b-14b~--| X4
D-------------------------------------|
A-------------------------------------|
E-------------------------------------|

that was all

if you have questions or corrections,mail me: antonio.flavio.af@hotmail.com

SNIPER
Tabbed by:Antonio23
Email:antonio.flavio.af@hotmail.com
http://www.ultimate-guitar.com/tabs/...sniper_tab.htm
Tuning:Standart

riff 1
E----------------------------------------------------------------|
B----------------------------------------------------------------|
G-----7h9-------------7h9-------------7h9------------------------|
D--------7h9-7h9---------7h9-7h9---------7h9-7h9-------5---4-----| X2
A------------------------------------------------------5---4-----|
E-0-X8-----------0-X8------------0-X8------------0-X8--3---2-----|
* * * *

riff2
E-----------------------|
B-----------------------|
G-----------------------|
D-----------------5--4--| X4
A-----5h7-----5h7-5--4--|
E-0-0-----0-0-----3--2--|


riff1


riff2


E----------------------- --------------------------|
B----------------------- --------------------------|
G-----5--7-------------- ----5--7------------------|
D--2--5--7-------------- X3 -2--5--7------------------| X4
A--2--3--5------5----5-- -2--3--5------------------|
E--0---------5h7--5h7--- -0---------3h5-5-5-3p0----|

E------------------------------------------|
B------------------------------------------|
G------------------------------------------|
D--2----3-0h2----3-0h2----3-0h2----5-4-----| X2
A--2----3-0h2----3-0h2----3-0h2----5-4-----|
E--0----1---0----1---0----1---0----3-2-----|


riff1


riff2


E----------------------------------|
B----------------------------------|
G----------------------------------|
D----------------------------------| X8
A----------------------------------|
E-0-0-0-0-0-0-0-0-5-6-0-3-5-0-1-3--|


riff2


E-------------------------|
B-------------------------|
G-----------------3-3-----|
D--2-2--3-3--4-4--3-3--2--|
A--2-2--3-3--4-4--1-1--2--|
E--0-0--1-1--2-2-------0--|

| / slide up
| \ slide down
| h hammer-on
| p pull-off
| ~ vibrato
| + harmonic
| x Mute note
| * Palm mute ================================================== =============================

Peace Is Dead tab by Kalashnikov

http://www.ultimate-guitar.com/tabs/...s_dead_tab.htm

|-------------------------------|
|-------------------------------|
|-------------------------------| (5x)
|--7-7-7-7-7--------------------|
|--7-7-7-7-7--------------------|
|--5-5-5-5-5--------------------|

|-------------------------------|
|-------------------------------|
|-------------------------------|
|-------------------------------|
|-------------------------------|
|--5-5-6-4/5--------------------|

|-------------------------------|
|---------------7-5-------------|
|--------------------7-6--------|
|--7-7-7-7-7--------------------|
|--7-7-7-7-7--------------------|
|--5-5-5-5-5--------------------|

|-------------------------------|
|-------------------------------|
|-------------------------------|
|--7-7-7-7-7--------------------|
|--7-7-7-7-7--------------------|
|--5-5-5-5-5---5-5-6-4/5--------|

|-------------------------------|
|-------------------------------|
|---------------8---------------|
|--7-7-7-7-7----8---7-----------|
|--7-7-7-7-7----6---7-----------|
|--5-5-5-5-5--------5-----------|

|-------------------------------|
|-------------------------------|
|-------------------------------| (4x)
|---7-x-8-x-5-x-7-x-7-----------|
|-------------------------------|
|-------------------------------|

|-------------------------------|
|-------------------------------| (7x)
|--x-x-8------------------------|
|--x-x-8------------------------|
|--x-x-6------------------------|
|-------------------------------|

|-------------------------------|
|-------------------------------|
|-------------------------------| (4x)
|---7-x-8-x-5-x-7-x-7-----------|
|-------------------------------|
|-------------------------------|

|-------------------------------|
|-------------------------------| (7x)
|--x-x-8------------------------|
|--x-x-8------------------------|
|--x-x-6------------------------|
|-------------------------------|

|-------------------------------|
|-------------------------------|
|-------------------------------| (5x)
|--7-7-7-7-7--------------------|
|--7-7-7-7-7--------------------|
|--5-5-5-5-5--------------------|

|-------------------------------|
|-------------------------------|
|-------------------------------|
|-------------------------------|
|-------------------------------|
|--5-5-6-4/5--------------------|

|-------------------------------|
|---------------7-5-------------|
|--------------------7-6--------|
|--7-7-7-7-7--------------------|
|--7-7-7-7-7--------------------|
|--5-5-5-5-5--------------------|

|-------------------------------|
|-------------------------------|
|-------------------------------|
|--7-7-7-7-7--------------------|
|--7-7-7-7-7--------------------|
|--5-5-5-5-5---5-5-6-4/5--------|

|-------------------------------|
|-------------------------------|
|---------------8---------------|
|--7-7-7-7-7----8---7-----------|
|--7-7-7-7-7----6---7-----------|
|--5-5-5-5-5--------5-----------|

|-------------------------------|
|-------------------------------|
|-------------------------------| (4x)
|---7-x-8-x-5-x-7-x-7-----------|
|-------------------------------|
|-------------------------------|

|-------------------------------|
|-------------------------------| (7x)
|--x-x-8------------------------|
|--x-x-8------------------------|
|--x-x-6------------------------|
|-------------------------------|

|-------------------------------|
|-------------------------------|
|-------------------------------| (4x)
|---7-x-8-x-5-x-7-x-7-----------|
|-------------------------------|
|-------------------------------|

|-------------------------------|
|-------------------------------|
|---8--8-8-8-8-8-8--------------|
|---8--8-8-8-8-8-8--------------|
|---6--6-6-6-6-6-6--------------|
|-------------------------------|

|-------------------------------|
|-------------------------------|
|-------------------------------| (5x)
|--7-7-7-7-7--------------------|
|--7-7-7-7-7--------------------|
|--5-5-5-5-5--------------------|

|-------------------------------|
|-------------------------------|
|-------------------------------|
|-------------------------------|
|-------------------------------|
|--5-5-6-4/5--------------------|

|-------------------------------|
|---------------7-5-------------|
|--------------------7-6--------|
|--7-7-7-7-7--------------------|
|--7-7-7-7-7--------------------|
|--5-5-5-5-5--------------------|

|-------------------------------|
|-------------------------------|
|-------------------------------|
|--7-7-7-7-7--------------------|
|--7-7-7-7-7--------------------|
|--5-5-5-5-5---5-5-6-4/5--------|

|-------------------------------|
|-------------------------------|
|---------------8---------------|
|--7-7-7-7-7----8---7-----------|
|--7-7-7-7-7----6---7-----------|
|--5-5-5-5-5--------5-----------|

REPEAT 4x----------------------------|
|
|/ |/ |
|
|-------------------------------| |
|-------------------------------| |
|-------------------------------| <
|----7-8-5-7-7------------------| |
|-------------------------------| |
|-------------------------------| |
|
|-------------------------------| |
|-------------------------------| |
|--7-8-10----7-8-10-------------| <
|--7-8-10----7-8-10-------------| |
|--5-6-8-----5-6-8--------------| |
|-------------------------------| |

|-------------------------------|
|-------------------------------|
|-------------------------------|
|--7-7-7-7-7-7-7-7--------------| ((LET RING))
|--7-7-7-7-7-7-7-7--------------|
|--5-5-5-5-5-5-5-5--------------|
__________________
.::Jesus ama-te, mas quem te fode sou eu!::.
Responder com Quote
Responder

« Anterior | Seguinte »

Currently Active Users Viewing This Thread: 1 (0 members and 1 guests)
 

Opções
Display

Regras de Criação de Mensagens
não pode criar novos tópicos
não pode enviar respostas às mensagens
não pode adicionar ficheiros em anexo
não pode editar as suas mensagens
O Código vB está On
Smiles estão On
Código da [IMG] é On
Código HTML é Desligado
Ir Para o Fórum:


Todas horas estão no fuso horário GMT. A hora actual é 10:24.

Largura do Site:

© 2007-2019 - Vai Tudo Abaixo